Sad Reminders

An Unofficial Mark Kozelek Site

You are not logged in.

Announcement

This forum is now READ ONLY. The new forum is here. Read why we have a new forum here.

#1 09-09-2012 11:00pm

ultralex
Member
Registered: 01-26-2012
Posts: 5

Song for Richard Collopy Tab

After messing with different tunings, this one seems the most practical. Capo 4 if you are tuned to D, Capo 5 if you are tuned to Db. The tab is pretty simple, and apart from the overdubs on the recording during part II, note for note.


tuning low to high - DADEAC# - Capo 4

Part I

C#-1--------3--------5--------7---------
A---------------------------------------
E--2--------4--------5--------7---------
D---------------------------------------
A--------0--------0--------0--------0---
D-----0--------0--------0--------0------


-8--10-0-----------0------------------
----------0-----------------0---------
-9-----------------0------------------
----------0-----------------0---------
----------------0--------0--------0---
-------------0--------0--------0------

part II

----0--------0--------0--------0--------0--------0--------0------
-------0--------0--------0--------0--------0--------0--------0---
-----------------------------------------------------------------
-------------------------------------------------------------(2x)
----------2--------0-----------------5-----------------5---------
-4--------------------------5-----------------5------------------


----0--------0--------0--------0--------0--------0--------0------
-------0--------0--------0--------0--------0--------0--------0---
-----------------------------------------------------------------
-0-----------------------------------------------------------(2x)
----------0--------2-----------------5-----------------5---------
----------------------------5-----------------5------------------

Offline

Board footer

Powered by FluxBB